ISO-10303-21;
HEADER;
/* Generated by software containing ST-Developer
 * from STEP Tools, Inc. (www.steptools.com) 
 */

FILE_DESCRIPTION(
/* description */ (''),
/* implementation_level */ '2;1');

FILE_NAME(
/* name */ 'Insect screen.stp',
/* time_stamp */ '2024-11-27T15:46:53+01:00',
/* author */ ('konta'),
/* organization */ (''),
/* preprocessor_version */ 'ST-DEVELOPER v20',
/* originating_system */ 'Autodesk Inventor 2025',
/* authorisation */ '');

FILE_SCHEMA (('AUTOMOTIVE_DESIGN { 1 0 10303 214 3 1 1 }'));
ENDSEC;

DATA;
#10=MECHANICAL_DESIGN_GEOMETRIC_PRESENTATION_REPRESENTATION('',(#13),#388);
#11=SHAPE_REPRESENTATION_RELATIONSHIP('SRR','None',#395,#12);
#12=ADVANCED_BREP_SHAPE_REPRESENTATION('',(#14),#387);
#13=STYLED_ITEM('',(#404),#14);
#14=MANIFOLD_SOLID_BREP('Solid1',#223);
#15=CIRCLE('',#248,1.5);
#16=CIRCLE('',#249,1.5);
#17=CIRCLE('',#252,0.699999999999998);
#18=CIRCLE('',#260,0.7);
#19=CYLINDRICAL_SURFACE('',#247,1.5);
#20=CYLINDRICAL_SURFACE('',#263,0.7);
#21=FACE_OUTER_BOUND('',#35,.T.);
#22=FACE_OUTER_BOUND('',#36,.T.);
#23=FACE_OUTER_BOUND('',#37,.T.);
#24=FACE_OUTER_BOUND('',#38,.T.);
#25=FACE_OUTER_BOUND('',#39,.T.);
#26=FACE_OUTER_BOUND('',#40,.T.);
#27=FACE_OUTER_BOUND('',#41,.T.);
#28=FACE_OUTER_BOUND('',#42,.T.);
#29=FACE_OUTER_BOUND('',#43,.T.);
#30=FACE_OUTER_BOUND('',#44,.T.);
#31=FACE_OUTER_BOUND('',#45,.T.);
#32=FACE_OUTER_BOUND('',#46,.T.);
#33=FACE_OUTER_BOUND('',#47,.T.);
#34=FACE_OUTER_BOUND('',#48,.T.);
#35=EDGE_LOOP('',(#141,#142,#143,#144));
#36=EDGE_LOOP('',(#145,#146,#147,#148));
#37=EDGE_LOOP('',(#149,#150,#151,#152));
#38=EDGE_LOOP('',(#153,#154,#155,#156));
#39=EDGE_LOOP('',(#157,#158,#159,#160));
#40=EDGE_LOOP('',(#161,#162,#163,#164));
#41=EDGE_LOOP('',(#165,#166,#167,#168));
#42=EDGE_LOOP('',(#169,#170,#171,#172));
#43=EDGE_LOOP('',(#173,#174,#175,#176));
#44=EDGE_LOOP('',(#177,#178,#179,#180));
#45=EDGE_LOOP('',(#181,#182,#183,#184));
#46=EDGE_LOOP('',(#185,#186,#187,#188));
#47=EDGE_LOOP('',(#189,#190,#191,#192));
#48=EDGE_LOOP('',(#193,#194,#195,#196));
#49=LINE('',#330,#73);
#50=LINE('',#332,#74);
#51=LINE('',#334,#75);
#52=LINE('',#335,#76);
#53=LINE('',#338,#77);
#54=LINE('',#342,#78);
#55=LINE('',#346,#79);
#56=LINE('',#348,#80);
#57=LINE('',#349,#81);
#58=LINE('',#351,#82);
#59=LINE('',#354,#83);
#60=LINE('',#357,#84);
#61=LINE('',#359,#85);
#62=LINE('',#361,#86);
#63=LINE('',#362,#87);
#64=LINE('',#365,#88);
#65=LINE('',#366,#89);
#66=LINE('',#368,#90);
#67=LINE('',#370,#91);
#68=LINE('',#372,#92);
#69=LINE('',#373,#93);
#70=LINE('',#376,#94);
#71=LINE('',#377,#95);
#72=LINE('',#379,#96);
#73=VECTOR('',#268,10.);
#74=VECTOR('',#269,10.);
#75=VECTOR('',#270,10.);
#76=VECTOR('',#271,10.);
#77=VECTOR('',#274,10.);
#78=VECTOR('',#277,10.);
#79=VECTOR('',#282,10.);
#80=VECTOR('',#283,10.);
#81=VECTOR('',#284,10.);
#82=VECTOR('',#287,10.);
#83=VECTOR('',#290,10.);
#84=VECTOR('',#293,10.);
#85=VECTOR('',#294,10.);
#86=VECTOR('',#295,10.);
#87=VECTOR('',#296,10.);
#88=VECTOR('',#299,10.);
#89=VECTOR('',#300,10.);
#90=VECTOR('',#303,10.);
#91=VECTOR('',#306,10.);
#92=VECTOR('',#307,10.);
#93=VECTOR('',#308,10.);
#94=VECTOR('',#311,10.);
#95=VECTOR('',#312,10.);
#96=VECTOR('',#315,10.);
#97=VERTEX_POINT('',#328);
#98=VERTEX_POINT('',#329);
#99=VERTEX_POINT('',#331);
#100=VERTEX_POINT('',#333);
#101=VERTEX_POINT('',#337);
#102=VERTEX_POINT('',#339);
#103=VERTEX_POINT('',#341);
#104=VERTEX_POINT('',#345);
#105=VERTEX_POINT('',#347);
#106=VERTEX_POINT('',#352);
#107=VERTEX_POINT('',#356);
#108=VERTEX_POINT('',#358);
#109=VERTEX_POINT('',#360);
#110=VERTEX_POINT('',#364);
#111=VERTEX_POINT('',#371);
#112=VERTEX_POINT('',#375);
#113=EDGE_CURVE('',#97,#98,#49,.T.);
#114=EDGE_CURVE('',#98,#99,#50,.T.);
#115=EDGE_CURVE('',#100,#99,#51,.T.);
#116=EDGE_CURVE('',#97,#100,#52,.T.);
#117=EDGE_CURVE('',#101,#97,#53,.T.);
#118=EDGE_CURVE('',#102,#101,#15,.T.);
#119=EDGE_CURVE('',#102,#103,#54,.T.);
#120=EDGE_CURVE('',#103,#97,#16,.T.);
#121=EDGE_CURVE('',#98,#104,#55,.T.);
#122=EDGE_CURVE('',#105,#104,#56,.T.);
#123=EDGE_CURVE('',#99,#105,#57,.T.);
#124=EDGE_CURVE('',#104,#101,#58,.T.);
#125=EDGE_CURVE('',#104,#106,#17,.T.);
#126=EDGE_CURVE('',#106,#102,#59,.T.);
#127=EDGE_CURVE('',#107,#106,#60,.T.);
#128=EDGE_CURVE('',#108,#107,#61,.T.);
#129=EDGE_CURVE('',#109,#108,#62,.T.);
#130=EDGE_CURVE('',#106,#109,#63,.T.);
#131=EDGE_CURVE('',#101,#110,#64,.T.);
#132=EDGE_CURVE('',#110,#105,#65,.T.);
#133=EDGE_CURVE('',#110,#100,#66,.T.);
#134=EDGE_CURVE('',#103,#107,#67,.T.);
#135=EDGE_CURVE('',#111,#103,#68,.T.);
#136=EDGE_CURVE('',#111,#108,#69,.T.);
#137=EDGE_CURVE('',#112,#109,#70,.T.);
#138=EDGE_CURVE('',#112,#102,#71,.T.);
#139=EDGE_CURVE('',#112,#111,#72,.T.);
#140=EDGE_CURVE('',#107,#98,#18,.T.);
#141=ORIENTED_EDGE('',*,*,#113,.T.);
#142=ORIENTED_EDGE('',*,*,#114,.T.);
#143=ORIENTED_EDGE('',*,*,#115,.F.);
#144=ORIENTED_EDGE('',*,*,#116,.F.);
#145=ORIENTED_EDGE('',*,*,#117,.F.);
#146=ORIENTED_EDGE('',*,*,#118,.F.);
#147=ORIENTED_EDGE('',*,*,#119,.T.);
#148=ORIENTED_EDGE('',*,*,#120,.T.);
#149=ORIENTED_EDGE('',*,*,#121,.T.);
#150=ORIENTED_EDGE('',*,*,#122,.F.);
#151=ORIENTED_EDGE('',*,*,#123,.F.);
#152=ORIENTED_EDGE('',*,*,#114,.F.);
#153=ORIENTED_EDGE('',*,*,#124,.F.);
#154=ORIENTED_EDGE('',*,*,#125,.T.);
#155=ORIENTED_EDGE('',*,*,#126,.T.);
#156=ORIENTED_EDGE('',*,*,#118,.T.);
#157=ORIENTED_EDGE('',*,*,#127,.F.);
#158=ORIENTED_EDGE('',*,*,#128,.F.);
#159=ORIENTED_EDGE('',*,*,#129,.F.);
#160=ORIENTED_EDGE('',*,*,#130,.F.);
#161=ORIENTED_EDGE('',*,*,#124,.T.);
#162=ORIENTED_EDGE('',*,*,#131,.T.);
#163=ORIENTED_EDGE('',*,*,#132,.T.);
#164=ORIENTED_EDGE('',*,*,#122,.T.);
#165=ORIENTED_EDGE('',*,*,#117,.T.);
#166=ORIENTED_EDGE('',*,*,#116,.T.);
#167=ORIENTED_EDGE('',*,*,#133,.F.);
#168=ORIENTED_EDGE('',*,*,#131,.F.);
#169=ORIENTED_EDGE('',*,*,#134,.F.);
#170=ORIENTED_EDGE('',*,*,#135,.F.);
#171=ORIENTED_EDGE('',*,*,#136,.T.);
#172=ORIENTED_EDGE('',*,*,#128,.T.);
#173=ORIENTED_EDGE('',*,*,#126,.F.);
#174=ORIENTED_EDGE('',*,*,#130,.T.);
#175=ORIENTED_EDGE('',*,*,#137,.F.);
#176=ORIENTED_EDGE('',*,*,#138,.T.);
#177=ORIENTED_EDGE('',*,*,#129,.T.);
#178=ORIENTED_EDGE('',*,*,#136,.F.);
#179=ORIENTED_EDGE('',*,*,#139,.F.);
#180=ORIENTED_EDGE('',*,*,#137,.T.);
#181=ORIENTED_EDGE('',*,*,#113,.F.);
#182=ORIENTED_EDGE('',*,*,#120,.F.);
#183=ORIENTED_EDGE('',*,*,#134,.T.);
#184=ORIENTED_EDGE('',*,*,#140,.T.);
#185=ORIENTED_EDGE('',*,*,#123,.T.);
#186=ORIENTED_EDGE('',*,*,#132,.F.);
#187=ORIENTED_EDGE('',*,*,#133,.T.);
#188=ORIENTED_EDGE('',*,*,#115,.T.);
#189=ORIENTED_EDGE('',*,*,#119,.F.);
#190=ORIENTED_EDGE('',*,*,#138,.F.);
#191=ORIENTED_EDGE('',*,*,#139,.T.);
#192=ORIENTED_EDGE('',*,*,#135,.T.);
#193=ORIENTED_EDGE('',*,*,#121,.F.);
#194=ORIENTED_EDGE('',*,*,#140,.F.);
#195=ORIENTED_EDGE('',*,*,#127,.T.);
#196=ORIENTED_EDGE('',*,*,#125,.F.);
#197=PLANE('',#246);
#198=PLANE('',#250);
#199=PLANE('',#251);
#200=PLANE('',#253);
#201=PLANE('',#254);
#202=PLANE('',#255);
#203=PLANE('',#256);
#204=PLANE('',#257);
#205=PLANE('',#258);
#206=PLANE('',#259);
#207=PLANE('',#261);
#208=PLANE('',#262);
#209=ADVANCED_FACE('',(#21),#197,.T.);
#210=ADVANCED_FACE('',(#22),#19,.T.);
#211=ADVANCED_FACE('',(#23),#198,.T.);
#212=ADVANCED_FACE('',(#24),#199,.T.);
#213=ADVANCED_FACE('',(#25),#200,.T.);
#214=ADVANCED_FACE('',(#26),#201,.T.);
#215=ADVANCED_FACE('',(#27),#202,.F.);
#216=ADVANCED_FACE('',(#28),#203,.T.);
#217=ADVANCED_FACE('',(#29),#204,.T.);
#218=ADVANCED_FACE('',(#30),#205,.T.);
#219=ADVANCED_FACE('',(#31),#206,.T.);
#220=ADVANCED_FACE('',(#32),#207,.T.);
#221=ADVANCED_FACE('',(#33),#208,.F.);
#222=ADVANCED_FACE('',(#34),#20,.F.);
#223=CLOSED_SHELL('',(#209,#210,#211,#212,#213,#214,#215,#216,#217,#218,
#219,#220,#221,#222));
#224=DERIVED_UNIT_ELEMENT(#227,1.);
#225=DERIVED_UNIT_ELEMENT(#390,-3.);
#226=DIMENSIONAL_EXPONENTS(0.,1.,0.,0.,0.,0.,0.);
#227=(
CONVERSION_BASED_UNIT('gram',#229)
MASS_UNIT()
NAMED_UNIT(#226)
);
#228=(
MASS_UNIT()
NAMED_UNIT(*)
SI_UNIT(.KILO.,.GRAM.)
);
#229=MASS_MEASURE_WITH_UNIT(MASS_MEASURE(0.001),#228);
#230=DERIVED_UNIT((#224,#225));
#231=MEASURE_REPRESENTATION_ITEM('density measure',
POSITIVE_RATIO_MEASURE(1.),#230);
#232=PROPERTY_DEFINITION_REPRESENTATION(#237,#234);
#233=PROPERTY_DEFINITION_REPRESENTATION(#238,#235);
#234=REPRESENTATION('material name',(#236),#387);
#235=REPRESENTATION('density',(#231),#387);
#236=DESCRIPTIVE_REPRESENTATION_ITEM('Generic','Generic');
#237=PROPERTY_DEFINITION('material property','material name',#397);
#238=PROPERTY_DEFINITION('material property','density of part',#397);
#239=DATE_TIME_ROLE('creation_date');
#240=APPLIED_DATE_AND_TIME_ASSIGNMENT(#241,#239,(#397));
#241=DATE_AND_TIME(#242,#243);
#242=CALENDAR_DATE(2024,16,10);
#243=LOCAL_TIME(0,0,0.,#244);
#244=COORDINATED_UNIVERSAL_TIME_OFFSET(0,0,.BEHIND.);
#245=AXIS2_PLACEMENT_3D('',#326,#264,#265);
#246=AXIS2_PLACEMENT_3D('',#327,#266,#267);
#247=AXIS2_PLACEMENT_3D('',#336,#272,#273);
#248=AXIS2_PLACEMENT_3D('',#340,#275,#276);
#249=AXIS2_PLACEMENT_3D('',#343,#278,#279);
#250=AXIS2_PLACEMENT_3D('',#344,#280,#281);
#251=AXIS2_PLACEMENT_3D('',#350,#285,#286);
#252=AXIS2_PLACEMENT_3D('',#353,#288,#289);
#253=AXIS2_PLACEMENT_3D('',#355,#291,#292);
#254=AXIS2_PLACEMENT_3D('',#363,#297,#298);
#255=AXIS2_PLACEMENT_3D('',#367,#301,#302);
#256=AXIS2_PLACEMENT_3D('',#369,#304,#305);
#257=AXIS2_PLACEMENT_3D('',#374,#309,#310);
#258=AXIS2_PLACEMENT_3D('',#378,#313,#314);
#259=AXIS2_PLACEMENT_3D('',#380,#316,#317);
#260=AXIS2_PLACEMENT_3D('',#381,#318,#319);
#261=AXIS2_PLACEMENT_3D('',#382,#320,#321);
#262=AXIS2_PLACEMENT_3D('',#383,#322,#323);
#263=AXIS2_PLACEMENT_3D('',#384,#324,#325);
#264=DIRECTION('axis',(0.,0.,1.));
#265=DIRECTION('refdir',(1.,0.,0.));
#266=DIRECTION('center_axis',(0.,0.,-1.));
#267=DIRECTION('ref_axis',(-1.83758917935762E-15,-1.,0.));
#268=DIRECTION('',(-1.,1.83804885322084E-15,0.));
#269=DIRECTION('',(1.83804885322084E-15,1.,0.));
#270=DIRECTION('',(-1.,1.83758917935762E-15,0.));
#271=DIRECTION('',(1.83804885322084E-15,1.,0.));
#272=DIRECTION('center_axis',(0.,0.,1.));
#273=DIRECTION('ref_axis',(-4.59673863223499E-19,-1.,0.));
#274=DIRECTION('',(1.37870491794844E-22,-2.53412699336507E-37,-1.));
#275=DIRECTION('center_axis',(0.,0.,1.));
#276=DIRECTION('ref_axis',(0.,-1.,0.));
#277=DIRECTION('',(-6.33754615878598E-41,-1.37870491794844E-22,-1.));
#278=DIRECTION('center_axis',(0.,0.,1.));
#279=DIRECTION('ref_axis',(0.,-1.,0.));
#280=DIRECTION('center_axis',(-1.,1.83762994029637E-15,1.37870491794844E-22));
#281=DIRECTION('ref_axis',(1.37870491794844E-22,-2.53349323874919E-37,1.));
#282=DIRECTION('',(1.37870491794844E-22,-2.53412699336507E-37,1.));
#283=DIRECTION('',(-1.83804885322084E-15,-1.,0.));
#284=DIRECTION('',(0.,0.,1.));
#285=DIRECTION('center_axis',(0.,0.,1.));
#286=DIRECTION('ref_axis',(1.,0.,0.));
#287=DIRECTION('',(1.,-1.83804885322084E-15,0.));
#288=DIRECTION('center_axis',(0.,0.,-1.));
#289=DIRECTION('ref_axis',(1.,-1.98254111540207E-15,0.));
#290=DIRECTION('',(-4.59673863223499E-19,-1.,0.));
#291=DIRECTION('center_axis',(4.07609387568652E-20,1.,1.37870491794844E-22));
#292=DIRECTION('ref_axis',(0.,-1.37870491794844E-22,1.));
#293=DIRECTION('',(-6.33754615878598E-41,-1.37870491794844E-22,1.));
#294=DIRECTION('',(1.,-4.59673863223501E-19,0.));
#295=DIRECTION('',(0.,0.,-1.));
#296=DIRECTION('',(-1.,4.59673863223499E-19,0.));
#297=DIRECTION('center_axis',(0.,0.,1.));
#298=DIRECTION('ref_axis',(1.83758917935762E-15,1.,0.));
#299=DIRECTION('',(1.83804885322084E-15,1.,0.));
#300=DIRECTION('',(-1.,1.83758917935762E-15,0.));
#301=DIRECTION('center_axis',(-1.,1.83762994029637E-15,-1.37870491794844E-22));
#302=DIRECTION('ref_axis',(-1.37870491794844E-22,2.53349323874919E-37,1.));
#303=DIRECTION('',(0.,0.,-1.));
#304=DIRECTION('center_axis',(0.,0.,-1.));
#305=DIRECTION('ref_axis',(-1.,0.,0.));
#306=DIRECTION('',(4.59673863223499E-19,1.,0.));
#307=DIRECTION('',(1.,-4.59673863223499E-19,0.));
#308=DIRECTION('',(0.,1.,0.));
#309=DIRECTION('center_axis',(0.,0.,1.));
#310=DIRECTION('ref_axis',(1.,0.,0.));
#311=DIRECTION('',(0.,1.,0.));
#312=DIRECTION('',(1.,-4.59673863223499E-19,0.));
#313=DIRECTION('center_axis',(-1.,0.,0.));
#314=DIRECTION('ref_axis',(0.,0.,1.));
#315=DIRECTION('',(0.,0.,-1.));
#316=DIRECTION('center_axis',(0.,0.,-1.));
#317=DIRECTION('ref_axis',(-1.,0.,0.));
#318=DIRECTION('center_axis',(0.,0.,1.));
#319=DIRECTION('ref_axis',(0.,-1.,0.));
#320=DIRECTION('center_axis',(1.83758917935762E-15,1.,0.));
#321=DIRECTION('ref_axis',(0.,0.,-1.));
#322=DIRECTION('center_axis',(4.07609387568652E-20,1.,-1.37870491794844E-22));
#323=DIRECTION('ref_axis',(0.,1.37870491794844E-22,1.));
#324=DIRECTION('center_axis',(0.,0.,1.));
#325=DIRECTION('ref_axis',(-4.59673863223499E-19,-1.,0.));
#326=CARTESIAN_POINT('',(0.,0.,0.));
#327=CARTESIAN_POINT('Origin',(23.89,1.5,-2400.));
#328=CARTESIAN_POINT('',(23.89,1.5,-2400.));
#329=CARTESIAN_POINT('',(23.09,1.5,-2400.));
#330=CARTESIAN_POINT('',(23.666,1.5,-2400.));
#331=CARTESIAN_POINT('',(23.0900000000001,44.55,-2400.));
#332=CARTESIAN_POINT('',(23.09,1.5,-2400.));
#333=CARTESIAN_POINT('',(23.8900000000001,44.55,-2400.));
#334=CARTESIAN_POINT('',(23.8900000000001,44.55,-2400.));
#335=CARTESIAN_POINT('',(23.89,-22.5424777357882,-2400.));
#336=CARTESIAN_POINT('Origin',(22.39,1.5,-1200.));
#337=CARTESIAN_POINT('',(23.89,1.5,0.));
#338=CARTESIAN_POINT('',(23.89,1.5,-1200.));
#339=CARTESIAN_POINT('',(22.39,-1.02920977975741E-17,0.));
#340=CARTESIAN_POINT('Origin',(22.39,1.5,0.));
#341=CARTESIAN_POINT('',(22.39,-1.02920977975741E-17,-2400.));
#342=CARTESIAN_POINT('',(22.39,0.,-1200.));
#343=CARTESIAN_POINT('Origin',(22.39,1.5,-2400.));
#344=CARTESIAN_POINT('Origin',(23.09,11.0037611321059,-1200.));
#345=CARTESIAN_POINT('',(23.09,1.5,0.));
#346=CARTESIAN_POINT('',(23.09,1.5,-1200.));
#347=CARTESIAN_POINT('',(23.0900000000001,44.55,0.));
#348=CARTESIAN_POINT('',(23.09,-22.5424777357882,0.));
#349=CARTESIAN_POINT('',(23.0900000000001,44.55,0.));
#350=CARTESIAN_POINT('Origin',(23.09,1.5,0.));
#351=CARTESIAN_POINT('',(23.666,1.5,0.));
#352=CARTESIAN_POINT('',(22.39,0.8,0.));
#353=CARTESIAN_POINT('Origin',(22.39,1.5,0.));
#354=CARTESIAN_POINT('',(22.39,0.224,0.));
#355=CARTESIAN_POINT('Origin',(33.5462388678941,0.8,-1200.));
#356=CARTESIAN_POINT('',(22.39,0.8,-2400.));
#357=CARTESIAN_POINT('',(22.39,0.8,-1200.));
#358=CARTESIAN_POINT('',(0.,0.8,-2400.));
#359=CARTESIAN_POINT('',(24.0424777357882,0.8,-2400.));
#360=CARTESIAN_POINT('',(0.,0.8,0.));
#361=CARTESIAN_POINT('',(0.,0.8,0.));
#362=CARTESIAN_POINT('',(0.,0.8,0.));
#363=CARTESIAN_POINT('Origin',(23.89,-0.152477735788232,0.));
#364=CARTESIAN_POINT('',(23.8900000000001,44.55,0.));
#365=CARTESIAN_POINT('',(23.89,-22.5424777357882,0.));
#366=CARTESIAN_POINT('',(23.8900000000001,44.55,0.));
#367=CARTESIAN_POINT('Origin',(23.89,11.0037611321059,-1200.));
#368=CARTESIAN_POINT('',(23.8900000000001,44.55,0.));
#369=CARTESIAN_POINT('Origin',(24.0424777357882,-1.10516986222748E-17,-2400.));
#370=CARTESIAN_POINT('',(22.39,0.224,-2400.));
#371=CARTESIAN_POINT('',(0.,0.,-2400.));
#372=CARTESIAN_POINT('',(0.,0.,-2400.));
#373=CARTESIAN_POINT('',(0.,0.,-2400.));
#374=CARTESIAN_POINT('Origin',(22.39,-1.02920977975741E-17,0.));
#375=CARTESIAN_POINT('',(0.,0.,0.));
#376=CARTESIAN_POINT('',(0.,0.,0.));
#377=CARTESIAN_POINT('',(0.,0.,0.));
#378=CARTESIAN_POINT('Origin',(0.,0.,0.));
#379=CARTESIAN_POINT('',(0.,0.,0.));
#380=CARTESIAN_POINT('Origin',(23.89,1.5,-2400.));
#381=CARTESIAN_POINT('Origin',(22.39,1.5,-2400.));
#382=CARTESIAN_POINT('Origin',(23.8900000000001,44.55,-2400.));
#383=CARTESIAN_POINT('Origin',(33.5462388678941,-2.26506494598689E-19,-1200.));
#384=CARTESIAN_POINT('Origin',(22.39,1.5,-1200.));
#385=UNCERTAINTY_MEASURE_WITH_UNIT(LENGTH_MEASURE(0.01),#389,
'DISTANCE_ACCURACY_VALUE',
'Maximum model space distance between geometric entities at asserted c
onnectivities');
#386=UNCERTAINTY_MEASURE_WITH_UNIT(LENGTH_MEASURE(0.01),#389,
'DISTANCE_ACCURACY_VALUE',
'Maximum model space distance between geometric entities at asserted c
onnectivities');
#387=(
GEOMETRIC_REPRESENTATION_CONTEXT(3)
GLOBAL_UNCERTAINTY_ASSIGNED_CONTEXT((#385))
GLOBAL_UNIT_ASSIGNED_CONTEXT((#389,#391,#392))
REPRESENTATION_CONTEXT('','3D')
);
#388=(
GEOMETRIC_REPRESENTATION_CONTEXT(3)
GLOBAL_UNCERTAINTY_ASSIGNED_CONTEXT((#386))
GLOBAL_UNIT_ASSIGNED_CONTEXT((#389,#391,#392))
REPRESENTATION_CONTEXT('','3D')
);
#389=(
LENGTH_UNIT()
NAMED_UNIT(*)
SI_UNIT(.MILLI.,.METRE.)
);
#390=(
LENGTH_UNIT()
NAMED_UNIT(*)
SI_UNIT(.CENTI.,.METRE.)
);
#391=(
NAMED_UNIT(*)
PLANE_ANGLE_UNIT()
SI_UNIT($,.RADIAN.)
);
#392=(
NAMED_UNIT(*)
SI_UNIT($,.STERADIAN.)
SOLID_ANGLE_UNIT()
);
#393=SHAPE_DEFINITION_REPRESENTATION(#394,#395);
#394=PRODUCT_DEFINITION_SHAPE('',$,#397);
#395=SHAPE_REPRESENTATION('',(#245),#387);
#396=PRODUCT_DEFINITION_CONTEXT('part definition',#401,'design');
#397=PRODUCT_DEFINITION('Insect screen','Insect screen',#398,#396);
#398=PRODUCT_DEFINITION_FORMATION('',$,#403);
#399=PRODUCT_RELATED_PRODUCT_CATEGORY('Insect screen','Insect screen',(#403));
#400=APPLICATION_PROTOCOL_DEFINITION('international standard',
'automotive_design',2009,#401);
#401=APPLICATION_CONTEXT(
'Core Data for Automotive Mechanical Design Process');
#402=PRODUCT_CONTEXT('part definition',#401,'mechanical');
#403=PRODUCT('Insect screen','Insect screen',$,(#402));
#404=PRESENTATION_STYLE_ASSIGNMENT((#405));
#405=SURFACE_STYLE_USAGE(.BOTH.,#408);
#406=SURFACE_STYLE_RENDERING_WITH_PROPERTIES($,#412,(#407));
#407=SURFACE_STYLE_TRANSPARENT(0.);
#408=SURFACE_SIDE_STYLE('',(#409,#406));
#409=SURFACE_STYLE_FILL_AREA(#410);
#410=FILL_AREA_STYLE('',(#411));
#411=FILL_AREA_STYLE_COLOUR('',#412);
#412=COLOUR_RGB('',0.749019607843137,0.749019607843137,0.749019607843137);
ENDSEC;
END-ISO-10303-21;
